Вход пользователей
Пользователь:

Пароль:

Чужой компьютер

Забыли пароль?

Регистрация
Меню
Разделы

Реклама













Сейчас с нами
303 пользователей онлайн

За сегодня: 0

Уникальных пользователей за последние сутки: 9297

agnarva, Artur Fas, Mishinka, Aleksasha, Sibirjak, zamoro4ka, далее...
Счетчики

Рейтинг@Mail.ru
Реклама




Музыка : Pink Floyd - Wish You Were Here (1975)
Автор: UFFO в 30/01/2006 14:00:00 (1512 прочтений)

И вот снова выкладываю замечательную группу Pink Floyd.

На этот раз радую альбомом Wish You Were Here.
Собственно, сама эта песня очень просто раскладывается на гитаре, легко поется и тяжело понимается. Построена на образах и отвлеченных понятиях, тем не менее, если разобраться, несет определенный смысл.

У каждой известной хорошей группы есть великие вещи и есть совершенно дурные. У Pink Floyd я знаю песен 7, которые категорически плохи.

Итак, треклист:
01 - Shine On You Crazy Diamond (Part I)
02 - Welcome To The Machine
03 - Have A Cigar
04 - Wish You Were Here
05 - Shine On You Crazy Diamond (Part II)

Новость полностью собрал Sniper, за что ему огромное спасибо =)

Невечные ссылки далее...




01, 02, 03, 04, 05




Также хочу поделиться с гитаристами разбором Wish You Were Here. =)

Intro
-----------------3--3--3--------------------3-3--3------
-----------------3--3--3--------------------3-3--3------
-----------------0--0- 0------0-------------0-0--0------
---------0--2--------------2-----2--0-------------------
----0h2--------------------------------------------------
--3-------------------------------------------------------

-----------------3--3--3--------------------3-3--3-------
-----------------3--3--3--------------------3-3--3-------
-----------------0--0- 0--------------------0-0--0-------
---------0--2--------------2--0--------------------------
----0h2-------------------------2--0---------------------
--3-------------------------------------------------------

2 раза.

Соло:
--------------------------------------3-/-5--5--3----------------------
-------3--5---3-----------------------3-/-5--5--3---3-/-5--5--3-------
--2/4-------4---4p2p0--------------------------------2-/-4--4--2--0----
-----------------------0-----0--0---------------------------------------
--------------------------/2--------------------------------------------
------------------------------------------------------------------------

------------------------------------------------------------------------
--3-/-5--5--3-------------3-----5--5b6r5p3------------3--5-------------
--2-/-4--4--2--4-----2/4-----4--------------4--2--4b5-------4b6--2-----
----------------5-------------------------------------------------------
------------------------------------------------------------------------
------------------------------------------------------------------------

------------------------------------------------------------------------
---------3-----5--5b6--5b6--3-------------------------------------------
---2/4------4------------------4--2--4b5---2----------------------------
------------------------------------------------------------------------
------------------------------------------------------------------------
------------------------------------------------------------------------


C D
So, so you think you can tell,
Am G
Heaven from Hell, blue skys from pain.
D C
Can you tell a green field from a cold steel rail,
Am
a smile from a veil,
G
Do you think you can tell?
C D
And did they get you to trade your heroes for ghosts,

Am G
Hot ashes for trees, hot air for a cool breeze, cold
D
comfort for change,
C Am
And did you exchange a walk on part in the war for a lead
G
role in a cage?

Здесь еще раз вступление.

C D
How I wish, how I wish you were here.
Am G
We're just two lost souls swimming in a fish bowl, year
D
after year.
C
Running over the same old ground. But have we found
Am G
the same old fears. Wish you were here!

Здесь опять вступление, конец на аккорде G (вверх по струнам, замедляя).

Seti
 SETI.ee (4)
Страница: 1-20 
destiny
Отправлено: 30/01/2006 14:26  Обновлено: 30/01/2006 14:26
Дата регистрации: 04/01/2006
Из: Нарва
Сообщений: -1
Pink Floyd СИЛА!!!
Sniper
Отправлено: 30/01/2006 15:42  Обновлено: 30/01/2006 15:42
Дата регистрации: 22/09/2004
Из:
Сообщений: -1
Красивая сила)

Благодарю за приписку в новости, польщен)

Щас еще что-нибудь поищу, выложу)
Woodoo
Отправлено: 30/01/2006 17:56  Обновлено: 30/01/2006 18:12
Дата регистрации: 08/01/2004
Из:
Сообщений: -2
Когда-то много лет назад (год 1980-1981) мама привезла мне этот альбом из-за границы. Вещь по тем временам просто неслыханная. И несмотря на то, что я просил привезти "Стену", а не "Wish You Were Here", радости моей не было предела.
Диск обошел ВСЮ школу.
Переписал диск практически каждый.
Когда он вернулся ко мне, он был уже изрядно заезженным.
Но мой авторитет в школе подскочил на небывалую высоту... Думаю, это того стоило...

ЗЫ: Из-за Pink Floyd и Deep Purple я начал учить английский, чтобы понять смысл песен.
Потом, позже, в училище, я сдавал экзамен по английскому языку в течение 5 минут. На "отлично".

ЗЗЫ: не поленился сходить, взять альбом и сфоткать...
Вот он... Сохранился

Bassmann
Отправлено: 31/01/2006 09:55  Обновлено: 31/01/2006 09:55
Дата регистрации: 14/12/2005
Из: Narva
Сообщений: -1
Pink Floyd
Страница: 1-20 
Вконтакте
 ВКонтакте (0)
Facebook
 Facebook (0)
Мировые новости